검색 방법   
제목: Sweet Child O' Mine (tabs And Lyrics)
가수: Guns N' Roses


E:|--------------15----14-----|--------------15----14-----|
B:|-----14--------------------|-----14--------------------|
G:|--------14-12----14----14--|--------14-12----14----14--|
D:|--12-----------------------|--12-----------------------|
A:|---------------------------|---------------------------|
E:|---------------------------|---------------------------|

E:|--------------15----14-----|--------------15----14-----|
B:|-----14--------------------|-----14--------------------|
G:|--------14-12----------14--|--------14-12----------14--|
D:|--14-----------------------|--14-----------------------|
A:|---------------------------|---------------------------|
E:|---------------------------|---------------------------|

E:|--------------15----14-----|--------------15----14-----|
B:|-----15--------------------|-----15--------------------|
G:|--12----14-12----14----14--|--12----14-12----14----14--|
D:|---------------------------|---------------------------|
A:|---------------------------|---------------------------|

E:|--------------15----14-----|--------------15----14-----|
B:|-----15--------------------|-----15--------------------|
G:|--------14-12----14----14--|--------14-12----14----14--|
D:|--12-----------------------|--12-----------------------|
A:|---------------------------|---------------------------|
E:|---------------------------|---------------------------|

E:|--------------15----14-----|--------------15----14-----|
B:|-----15--------------------|-----15--------------------|
G:|--------14-12----------14--|--------14-12----------14--|
D:|--14-----------------------|--14-----------------------|
A:|---------------------------|---------------------------|
E:|---------------------------|---------------------------|

E:|--------------15----14-----|--------------15----14-----|
B:|-----15--------------------|-----15--------------------|
G:|--12----14-12----14----14--|--12----14-12----14----14--|
D:|---------------------------|---------------------------|
A:|---------------------------|---------------------------|

E:|--------------15----14-----|--------------15----14-----|
B:|-----15--------------------|-----15--------------------|
G:|--------14-12----14----14--|--------14-12----14----14--|
D:|--12-----------------------|--12-----------------------|
A:|---------------------------|---------------------------|
E:|---------------------------|---------------------------|










E:|--------------15----14-----|--------------15----14-----|
B:|-----15--------------------|-----15--------------------|
G:|--------14-12----14----14--|--------14-12----14----14--|
D:|--12-----------------------|--12-----------------------|
A:|---------------------------|---------------------------|
E:|---------------------------|---------------------------!

E:|--------------15----14-----|--------------15----14-----|
B:|-----15--------------------|-----15--------------------|
G:|--------14-12----------14--|--------14-12----------14--|
D:|--14-----------------------|--14-----------------------|
A:|---------------------------|---------------------------|
E:|---------------------------|---------------------------

E:|--------------15----14-----|--------------15----14-----|
B:|-----15--------------------|-----15--------------------|
G:|--12----14-12----14----14--|--12----14-12----14----14--|
D:|---------------------------|---------------------------|
A:|---------------------------|---------------------------|
E:|---------------------------|---------------------------<



E:|--12------------12----14---|--15----14----12---------------14---|
B:|---------15----------------|---------------------15--------15---|
G:|-----14------14----14---14-|-----14----14----14------14----14---|
D:|---------------------------|------------------------------------|
A:|---------------------------|------------------------------------|
E:|---------------------------|------------------------------------|
Verse 1:

가수
제목
정확한 가수,제목이 필요할 수 있습니다.
*Guns N' Roses 다른 가사
You Can't Put Your Arms Round A Memory  가수:Guns N' Roses
TWAT  가수:Guns N' Roses
This I Love (Message for You)  가수:Guns N' Roses
Sweet Child O' Mine (tabs And Lyrics)  가수:Guns N' Roses
Rocket Queen, Extended Live Verse  가수:Guns N' Roses
Rhiad & The Bedouins  가수:Guns N' Roses
Pretty Tied Up (The Perils Of Rock N' Roll Decadence)  가수:Guns N' Roses
Paradise City  가수:Guns N' Roses
Look At Your Game Girl  가수:Guns N' Roses
Locomotive (Complicity)  가수:Guns N' Roses
It Tastes Good, Don't It  가수:Guns N' Roses
It's Alright"  가수:Guns N' Roses
IRS  가수:Guns N' Roses
Imagine  가수:Guns N' Roses
Every Rose Has Its Thorns  가수:Guns N' Roses
Double Talkin' Jive  가수:Guns N' Roses
Don't Cry (Original)  가수:Guns N' Roses
Don't Cry (Alt. Lyrics)  가수:Guns N' Roses
Dead Flowers  가수:Guns N' Roses
Cornshucker  가수:Guns N' Roses

인기 가사 TOP 100  연도별 인기 가사  라디오 방송 듣기
Copyright ⓒ 좋은 가사 검색, 2021 (가요,팝송 가사검색)